Saturday, September 13, 2014

Tab : She's Gone - Steelheart

In 1990's, lagu ni menjadi salah satu kegilaan peminat muzik rock ketika tu. Rasanya ramai antara korang yang tahu lagu ni & ramai rasanya yang cuba nak nyanyi lagu ni. Pastinya ramai yang tak lepas sebab key lagu ni sangat tinggi menggunung. Hahaha!!

Well, kali ni aku akan kongsikan pulak tab lagu ni untuk korang learn. Memang agak susah, berbelit jugak la jari kecuali kalau korang dah hari-hari mengadap. Kalau ada yang silap tu mohon tegur-tegur la, aku bukannya pro-stage.




TAB SYMBOLS:
------------
\  SLIDE DOWN FROM THE FRET INDICATED TO A FEW FRETS BELOW
/  SLIDE UP FROM AN INDICATED FRET TO ANOTHER INDICATED FRET 
H  HAMMER IN
P  PULL OFF
^  BEND
R  RELEASE BEND
~  VIBRATO


INTRO & VERSES: PIANO ARRANGED FOR GUITAR:
------------------------------------------

|---10---11-----11----11----------10----11-----11----11-----13--11--------|
|--------13-----13----13------13--------13-----13----13-------------------| 
|------------12----12----12----------------13-----13----13----------------|
|-------------------------------------------------------------------------|
|-------------------------------------------------------------------------|
|-------------------------------------------------------------------------|


|---10----10----10--------------10----10----15----13----------------------|
|---11----11----11-----11--13---12----12----12----12----------------------|
|------10----10----10--------------12----12----12----12-------------------|
|-------------------------------------------------------------------------|
|-------------------------------------------------------------------------|
|-------------------------------------------------------------------------|


|---8---8---8-----------8----8----10----10------3-------3-----3------3----|
|---9---9---9-----------9----9----12----12------3-----------3-------3-----|
|-----8---8---8-----------10--10-----12----12-------4-----4--------4------|
|-----------------6--5--3---------0---------------5---5-------------------|
|-------------------------------------------------------------------------|
|-----------------------------------------------3----------------3--------|


INTRO SOLO:
-----------
THE INTRO SOLO STARTS WITH A BASS GUITAR SLIDE, IT IS:

|---12\-------------------------------------------------------------------|
|-------------------------------------------------------------------------|
|-------------------------------------------------------------------------|
|-------------------------------------------------------------------------|


GUITAR INTRO SOLO:
------------------

|---11------8--10--11--10H11~-----/13---11-10---11-10~--------------------|
|-------------------------------------------------------------------------|
|-------------------------------------------------------------------------|
|-------------------------------------------------------------------------|
|-------------------------------------------------------------------------|
|-------------------------------------------------------------------------|

|---8--6--8--8/10~------10^11---10P8--------------------------------------|
|------------------------------------11/13~-----11H13P11\9~---8H9P8-------|
|--------------------------------------------------------------------10~--|
|-------------------------------------------------------------------------|
|-------------------------------------------------------------------------|
|-------------------------------------------------------------------------|

|---------13-10~-----10--11--13--13/15~-------19^20-----15H16P15----------|
|------13-----------------------------------------------------------------|
|---10--------------------------------------------------------------------|
|-------------------------------------------------------------------------|
|-------------------------------------------------------------------------|
|-------------------------------------------------------------------------|

|---15\-------------------------------------------------------------------|
|-------------------------------------------------------------------------|
|-------------------------------------------------------------------------|
|-------------------------------------------------------------------------|
|-------------------------------------------------------------------------|
|-------------------------------------------------------------------------|

SEKARANG KORANG SEMUA DAH TAHU VERSE BERMULA DENGAN TAB PIANO, SELEPAS 
SELESAI VERSE TERUS MASUK KE BAHAGIAN CHORUS. UNTUK PENGETAHUAN KORANG, 
CHORUS MENGGUNAKAN POWER CHORDS SERTA MELIBATKAN PENGGUNAAN DUA RIFFS.

   G#5        Eb5        Bb5         F5         G5
 |--4--|    |-----|    |-----|    |--1--|    |--3--|
 |--6--|    |--6--|    |--1--|    |--3--|    |--5--|
 |--6--|    |--8--|    |--3--|    |--3--|    |--5--|
 |-----|    |--8--|    |--3--|    |-----|    |-----|
 |-----|    |-----|    |-----|    |-----|    |-----|
 |-----|    |-----|    |-----|    |-----|    |-----|

       RIFF A:                            RIFF B:
       -------                            -------

|-------------------|            |---1-------------------|
|-------------------|            |---1-------------------|
|-------------------|            |---2-------------------|
|-------------------|            |---3-------------------|
|---6~--5~--3-------|            |-----------------------|
|-------------------|            |-----------------------|


CHORUS MACAM NI :

G#5             Eb5
LADY, WON`T YOU SAVE ME (RIFF A)
   Bb5              F5  
MY HEART BELONGS TO YOU (RIFF B) 
G#5              Eb5
LADY, CAN YOU FORGIVE ME (RIFF A)
    Bb5              F5  
FOR ALL I`VE DONE TO YOU (RIFF B)
G#5      Eb5 
LADY, OH LADY

BREAK AFTER CHORUS:

|------------3---------------------|
|-------3-----3-----3--------------|
|------4-------4----4--------------|
|-----5---------5------------------|
|----------------------------------|
|---3------------------------------|


KEMUDIAN VERSE KEDUA DINYANYIKAN & SELEPAS VERSE KEDUA, MASUK PULA CHORUS 
KEDUA YANG MANA DIPENGHUJUNGNYA ADA SIKIT BERBEZA DENGAN YANG PERTAMA SEBAB PENGHUJUNG CHORUS KEDUA AKAN TERUS MASUK KE GUITAR SOLO. JADI KORANG IKUT 
GUIDE DI BAWAH.

G#5             Eb5
LADY, WON`T YOU SAVE ME (RIFF A)
   Bb5              F5 
MY HEART BELONGS TO YOU (RIFF B)
G#5              Eb5
LADY, CAN YOU FORGIVE ME (RIFF A)
    Bb5              F5
FOR ALL I`VE DONE TO YOU (RIFF B)
G#5      Eb5       G5
LADY, OH LADY , OH LADY


GUITAR SOLO:
------------

|---11~--8----------------------------------------------------------------|
|---------11--8------------------------8^-8--------8----------------------|
|---------------10\8--------------8---------10^12----8H10--8~-------------|
|--------------------10~-------10---10------------------------------------|
|-------------------------------------------------------------------------|
|-------------------------------------------------------------------------|

|-------------------------------/11--10-----------------------------------|
|----------------------------------------11-------------------------------|
|------8-----10^R10P8\7~--------------------8/10--8-----------------------|
|---10---10-----------------------------------------10--------------------|
|-------------------------------------------------------------------------|
|-------------------------------------------------------------------------|

|----------------------------------------------10H11P10/15~---------------|
|---------------------------------------8H9P8-----------------------------|
|--------------------------------7H8P7------------------------------------|
|-------------9H10P9--10H12P10--------------------------------------------|
|---10H11P10--------------------------------------------------------------|
|-------------------------------------------------------------------------|

|---13-11--------------------------------11-13-13/15~--16/18-16-15\13-13~-|
|---------13-11/13~--13^15R13\-----11/13----------------------------------|
|-------------------------------------------------------------------------|
|-------------------------------------------------------------------------|
|-------------------------------------------------------------------------|
|-------------------------------------------------------------------------|

|---------13-13/15~\------19^20R19----------------------------------------|
|---15-16--------------------------20\------------------------------------|
|-------------------------------------------------------------------------|
|-------------------------------------------------------------------------|
|-------------------------------------------------------------------------|
|-------------------------------------------------------------------------|

    *************FAST PICKING************
|---15-15-15-15--16-16-16-16--19-19-19-19--20/22~-------------------------|
|-------------------------------------------------------------------------|
|-------------------------------------------------------------------------|
|-------------------------------------------------------------------------|
|-------------------------------------------------------------------------|
|-------------------------------------------------------------------------|

ULANG CHORUS 2 KALI, KEMUDIAN ENDING MASUK SINI:

   Eb5(LET RING)                D5(LET RING)
|-------------------------------------------------------------------------|
|-------------------------------------------------------------------------|
|-------------------------------------------------------------------------|
|---8----------------------------7----------------------------------------|
|---6----------------------------5----------------------------------------|
|-------------------------------------------------------------------------|

|---18/20-20~-------------20P18-------------------------------------------|
|-------------------18H20-------20P18-------------------------------------|
|----------------20-------------------20P19H20~---20/22--20--19H20P19\17~-|
|-------------------------------------------------------------------------|
|-------------------------------------------------------------------------|
|-------------------------------------------------------------------------|

|---20\-------------------------------------------------------------------|
|-------------------------------------------------------------------------|
|-------------------------------------------------------------------------|
|-------------------------------------------------------------------------|
|-------------------------------------------------------------------------|
|-------------------------------------------------------------------------|




1 comment:

  1. taktau pulak lagu nihh .. nanti try dengar laa

    ReplyDelete



Related Posts Plugin for WordPress, Blogger...